Suivez-nous :

Guitare LiveDéfisDonnez du galon ! - Exemple de phrasés sur un accordCommentaires pour la participation de Yellowshadow

La participation de Yellowshadow


Alors au programme.. penta de do M utilisée en 2 positions..montée , petit theme, cocottes !!

---------------------------------8-11------------------
---------------------------8-11-------------------------
---------------------8-10-------------------------------
---------------8-10------------------------------------
--------8-10------------------------------------------
--8-11--------------------------------------------------

1ier position
/////////////////////////////////////////////////////////



------------------------------------------11-13---------
----------------------------------11-13------------------
--------------------------10-12--------------------------
------------------10-13-----------------------------------
----------10-13------------------------------------------
--11-13---------------------------------------------------

2eme position...

///////////////////////////////////////////////////////////



Cocottes de fin :

--10-8--------------------10-8--------------8---------G
--------10-8-8 10--------------10-8--8-10------------D

Les commentaires


Dunce

  • 1 Novembre 2005 à 11:01
le son et le rythme

un peu ésitant l'ensemble

Tofgangxxl

  • 24 Octobre 2005 à 03:57
super les cocottes

par contre tu les joue pas telles quelles les gammes dans ton impro, ca aurait cool, de voir ca...

JF16

  • 21 Octobre 2005 à 13:22

Je note ton effort pour mettre peu de notes. je juge ton solo acceptable du point de vue pédagogique pour cela.
Le son manque un peu de netteté (si on veux bosser ton solo, on aura envie de jouer sur ton solo en duo, à méditer ca); la mise en place me parait baclée par endroit (ptin ! deux fois la remarque en deux jours !). tsss tss, manque de temps ptet.

fristophe

  • 20 Octobre 2005 à 17:31
vive les penta ^^
c'est du funk mon bonhome !!!!!

.............................

Nickepiff

  • 20 Octobre 2005 à 14:25

oué je c pas trop là,c pedago oui mais tu aurais pu mettre des plans plus ke des montées et descente de gamme et accentué le vibrato lol et les cocottes à la fin ben je les trouve pas top non plus dsl

Vil coyote

  • 20 Octobre 2005 à 13:35
Bien pédago et bien explicite Tom.
Par contre c'est pas ce que j'appel des cocottes a la fin.

Bien joué.

Défi
  • Titre : Donnez du galon ! - Exemple de phrasés sur un accord
  • Type : Guitare
  • Style : funk
  • Début : 19/10/2005
  • Fin : 05/11/2005
Participation
  • De : Yellowshadow
  • Date : 20/10/2005
  • Vote : 0
  • Commentaires : 6
  • Téléchargement : 327
Téléchargement