Suivez-nous :

Guitare LiveDéfisC'est vous qui voyez !! - Harmonisation d'une melodieCommentaires pour la participation de skynet

La participation de skynet


J'ai essayé d'harmoniser comme si c'était une recherche en musique classique.


-0---2--3---------------------------3----------------
-1-----------3--3--0------3---3----1---1---0--------
-----2-------0---------0--2----4---0---2---0--------
-----0-------0------2-----0----3---2---0---0--------
-0------------------3----------------------------------
-------------3-------------2---------------------------


------------------------------------------------------
-------------------------------------------------------
--2-----5------------------0-------------------------
-----4--4---1---2-----4------0-------------0--------
--5-----2---0---2---------2-----2----------0--------
-----------------4------------------3----3--2---------


--------------------------------------------------------
--------------------3------0---------------------------
--------------0-------2---0----------------------------
--1----2-----------0------0---------------------------
--3----2-----------------------------------------------
--2----3-----------2------3---------------------------

Les commentaires


pilipili

  • 2 Novembre 2006 à 21:25

Une presta qui colle parfaitemant au thème proposé.
Une version classique très bien vue.
Bien joué.

dentro

  • 28 Octobre 2006 à 00:29
C'est propre et bien joué.(13)
C'est un peut plat.

chaaz

  • 25 Octobre 2006 à 20:35
j'aime bien la verb'
le thême est suivi carré
c'est trop court!!!

salut sky'
sympathique ton harmo mais j'aurais apprécié un peu de défoule. au prochain défi peut être... çà reste buen quand même.

DrHee

  • 23 Octobre 2006 à 14:33
le style classique
joli dans l'ensemble
la melodie pas tjs respectée
l'ensemble un peu trop découpé

Participation réussie

niqo_plitnouk

  • 14 Octobre 2006 à 11:29
l'harmonisation sympa
trop de reverb a mon gout

c'est d'apres moi une bonne harmonisation, elle est agreable a ecouter, et ca suffit!
bref bien joué!

deju

  • 12 Octobre 2006 à 12:08
Belle recherche
Le son un peu trop claquant

Belle arrangement ! Merci beaucoup et à bientôt

JeffMignot93

  • 11 Octobre 2006 à 21:41
c'est bien dans l'esprit classique
le mi maj a 20" n'est pas justifier
mais je manque d'arguments

un poil trop de notes piquées
(t'as pas de quoi les payer ?)hu hu

avec 1 trille ou 2 ça aurait été parfait

patpouf

  • 10 Octobre 2006 à 18:56

admiratif le pouf , bravo

Manche9

  • 9 Octobre 2006 à 13:39
C'est Tres joli. Et merci pour la tablature. faudra m'expliquer comment vous faites ça, et avec quoi.

Le problème, et t'es pas le seul, c'est que l'on entend plus les syncopes. Il y aurait fallu jouer les notes du thème en anticipant et affirmer le tempo avec les basses sur le temps par exemple.

zigmout

  • 9 Octobre 2006 à 02:51

ca sonne pas toujours tres classique mais bon ca pas grave...en tout cas l'harmo semble bien tenir la route...y a juste des endroit ou pas exemplecertain accord ne vont pas dans le sens de l'accentuation...par exemple sur les 2 re successif du theme es accord et le theme ne dise pas la meme chose...on aurrait envie de supprimer lesecond re du theme(et d'ailleurs a l'origine le theme fesais pas re re mais mi re...j'ai mis re re car ca donnais plus de choix dans les tonalités)...enfin la ca fonctionne harmoniquement parlant mais a mon sens le theme deviens forcé du coup...il y a un ou 2 endroit comme ca a mon sens....mais sans cherché a analyser c'est juste l'impression que j'ai eu en ecoutant.

Défi
  • Titre : C'est vous qui voyez !! - Harmonisation d'une melodie
  • Type : Composition
  • Style : Divers
  • Début : 05/10/2006
  • Fin : 07/11/2006
Participation
  • De : skynet
  • Date : 09/10/2006
  • Vote : 10
  • Commentaires : 10
  • Téléchargement : 478
Téléchargement